ISO-10303-21;
HEADER;
FILE_DESCRIPTION (( 'STEP AP214' ),
    '1' );
FILE_NAME ('GCC-411315.STEP',
    '2020-02-15T10:10:32',
    ( 'China' ),
    ( 'Microsoft' ),
    'SwSTEP 2.0',
    'SolidWorks 2018',
    '' );
FILE_SCHEMA (( 'AUTOMOTIVE_DESIGN' ));
ENDSEC;

DATA;
#1 = UNCERTAINTY_MEASURE_WITH_UNIT (LENGTH_MEASURE( 1.000000000000000082E-05 ), #93, 'distance_accuracy_value', 'NONE');
#2 = CARTESIAN_POINT ( 'NONE',  ( -50.00000000000000000, 0.0000000000000000000, 4.253961525412961464 ) ) ;
#3 = COLOUR_RGB ( '',0.9411764705882352811, 0.9607843137254902244, 0.9686274509803921573 ) ;
#4 = ADVANCED_BREP_SHAPE_REPRESENTATION ( 'GCC-411315', ( #53, #24 ), #112 ) ;
#5 = ORIENTED_EDGE ( 'NONE', *, *, #94, .T. ) ;
#6 = DIRECTION ( 'NONE',  ( 1.000000000000000000, 0.0000000000000000000, 0.0000000000000000000 ) ) ;
#7 = CARTESIAN_POINT ( 'NONE',  ( -50.00000000000000000, 0.0000000000000000000, 4.253961525412961464 ) ) ;
#8 =( NAMED_UNIT ( * ) SI_UNIT ( $, .STERADIAN. ) SOLID_ANGLE_UNIT ( ) );
#9 = CARTESIAN_POINT ( 'NONE',  ( 50.00000000000000000, 6.123233995736766085E-15, 4.253961525412961464 ) ) ;
#10 = VERTEX_POINT ( 'NONE', #2 ) ;
#11 = MECHANICAL_DESIGN_GEOMETRIC_PRESENTATION_REPRESENTATION (  '', ( #135 ), #18 ) ;
#12 = ADVANCED_FACE ( 'NONE', ( #23 ), #44, .T. ) ;
#13 = COLOUR_RGB ( '',0.9411764705882352811, 0.9607843137254902244, 0.9686274509803921573 ) ;
#14 =( BOUNDED_CURVE ( )  B_SPLINE_CURVE ( 3, ( #76, #139, #136, #54 ),
 .UNSPECIFIED., .F., .F. ) 
 B_SPLINE_CURVE_WITH_KNOTS ( ( 4, 4 ),
 ( 4.712388980384689674, 7.853981633974482790 ),
 .UNSPECIFIED. ) 
 CURVE ( )  GEOMETRIC_REPRESENTATION_ITEM ( )  RATIONAL_B_SPLINE_CURVE ( ( 1.000000000000000000, 0.3333333333333333703, 0.3333333333333333703, 1.000000000000000000 ) ) 
 REPRESENTATION_ITEM ( '' )  );
#15 = SURFACE_SIDE_STYLE ('',( #130 ) ) ;
#16 = ORIENTED_EDGE ( 'NONE', *, *, #75, .F. ) ;
#17 = PLANE ( 'NONE',  #45 ) ;
#18 =( GEOMETRIC_REPRESENTATION_CONTEXT ( 3 ) GLOBAL_UNCERTAINTY_ASSIGNED_CONTEXT ( ( #1 ) ) GLOBAL_UNIT_ASSIGNED_CONTEXT ( ( #93, #96, #107 ) ) REPRESENTATION_CONTEXT ( 'NONE', 'WORKASPACE' ) );
#19 =( LENGTH_UNIT ( ) NAMED_UNIT ( * ) SI_UNIT ( .MILLI., .METRE. ) );
#20 = SURFACE_SIDE_STYLE ('',( #86 ) ) ;
#21 = APPLICATION_CONTEXT ( 'automotive_design' ) ;
#22 = CARTESIAN_POINT ( 'NONE',  ( 0.0000000000000000000, 0.0000000000000000000, 0.0000000000000000000 ) ) ;
#23 = FACE_OUTER_BOUND ( 'NONE', #64, .T. ) ;
#24 = AXIS2_PLACEMENT_3D ( 'NONE', #58, #31, #78 ) ;
#25 = EDGE_LOOP ( 'NONE', ( #129, #103 ) ) ;
#26 = CARTESIAN_POINT ( 'NONE',  ( 50.00000000000000000, 6.123233995736766085E-15, 0.0000000000000000000 ) ) ;
#27 = DIRECTION ( 'NONE',  ( -0.0000000000000000000, -0.0000000000000000000, -1.000000000000000000 ) ) ;
#28 = ORIENTED_EDGE ( 'NONE', *, *, #38, .T. ) ;
#29 = CARTESIAN_POINT ( 'NONE',  ( 0.0000000000000000000, 0.0000000000000000000, 0.0000000000000000000 ) ) ;
#30 = CARTESIAN_POINT ( 'NONE',  ( -50.00000000000000000, 0.0000000000000000000, 6.000000000000000000 ) ) ;
#31 = DIRECTION ( 'NONE',  ( 0.0000000000000000000, 0.0000000000000000000, 1.000000000000000000 ) ) ;
#32 = DIRECTION ( 'NONE',  ( 1.000000000000000000, 0.0000000000000000000, 0.0000000000000000000 ) ) ;
#33 = EDGE_CURVE ( 'NONE', #128, #61, #35, .T. ) ;
#34 = APPLICATION_CONTEXT ( 'automotive_design' ) ;
#35 = LINE ( 'NONE', #73, #122 ) ;
#36 = EDGE_LOOP ( 'NONE', ( #51, #134 ) ) ;
#37 = ORIENTED_EDGE ( 'NONE', *, *, #75, .T. ) ;
#38 = EDGE_CURVE ( 'NONE', #128, #10, #14, .T. ) ;
#39 = CYLINDRICAL_SURFACE ( 'NONE', #83, 50.00000000000000000 ) ;
#40 = CARTESIAN_POINT ( 'NONE',  ( 49.99999999999997868, 100.0000000000000000, 7.746038474587039424 ) ) ;
#41 = DIRECTION ( 'NONE',  ( 0.0000000000000000000, 0.0000000000000000000, 1.000000000000000000 ) ) ;
#42 = DIRECTION ( 'NONE',  ( 1.000000000000000000, 0.0000000000000000000, -0.0000000000000000000 ) ) ;
#43 = PRODUCT ( 'GCC-411315', 'GCC-411315', '', ( #46 ) ) ;
#44 = CYLINDRICAL_SURFACE ( 'NONE', #113, 50.00000000000000000 ) ;
#45 = AXIS2_PLACEMENT_3D ( 'NONE', #29, #108, #42 ) ;
#46 = PRODUCT_CONTEXT ( 'NONE', #21, 'mechanical' ) ;
#47 = FILL_AREA_STYLE_COLOUR ( '', #13 ) ;
#48 = EDGE_CURVE ( 'NONE', #71, #61, #87, .T. ) ;
#49 = FACE_OUTER_BOUND ( 'NONE', #89, .T. ) ;
#50 = PRODUCT_DEFINITION_SHAPE ( 'NONE', 'NONE',  #84 ) ;
#51 = ORIENTED_EDGE ( 'NONE', *, *, #48, .F. ) ;
#52 = SHAPE_DEFINITION_REPRESENTATION ( #50, #4 ) ;
#53 = MANIFOLD_SOLID_BREP ( 'ÇÐ³ý-À­Éì1', #127 ) ;
#54 = CARTESIAN_POINT ( 'NONE',  ( -50.00000000000000000, 0.0000000000000000000, 4.253961525412961464 ) ) ;
#55 = ORIENTED_EDGE ( 'NONE', *, *, #104, .T. ) ;
#56 = DIRECTION ( 'NONE',  ( 0.0000000000000000000, 0.9993908270190958731, 0.03489949670249403030 ) ) ;
#57 =( NAMED_UNIT ( * ) SI_UNIT ( $, .STERADIAN. ) SOLID_ANGLE_UNIT ( ) );
#58 = CARTESIAN_POINT ( 'NONE',  ( 0.0000000000000000000, 0.0000000000000000000, 0.0000000000000000000 ) ) ;
#59 = PRODUCT_RELATED_PRODUCT_CATEGORY ( 'part', '', ( #43 ) ) ;
#60 = AXIS2_PLACEMENT_3D ( 'NONE', #22, #140, #32 ) ;
#61 = VERTEX_POINT ( 'NONE', #26 ) ;
#62 = VECTOR ( 'NONE', #109, 1000.000000000000000 ) ;
#63 = CARTESIAN_POINT ( 'NONE',  ( 0.0000000000000000000, 0.0000000000000000000, 6.000000000000000000 ) ) ;
#64 = EDGE_LOOP ( 'NONE', ( #5, #115, #55, #16 ) ) ;
#65 = SURFACE_STYLE_USAGE ( .BOTH. , #15 ) ;
#66 =( BOUNDED_CURVE ( )  B_SPLINE_CURVE ( 3, ( #7, #81, #40, #67 ),
 .UNSPECIFIED., .F., .F. ) 
 B_SPLINE_CURVE_WITH_KNOTS ( ( 4, 4 ),
 ( 1.570796326794896558, 4.712388980384689674 ),
 .UNSPECIFIED. ) 
 CURVE ( )  GEOMETRIC_REPRESENTATION_ITEM ( )  RATIONAL_B_SPLINE_CURVE ( ( 1.000000000000000000, 0.3333333333333333703, 0.3333333333333333703, 1.000000000000000000 ) ) 
 REPRESENTATION_ITEM ( '' )  );
#67 = CARTESIAN_POINT ( 'NONE',  ( 50.00000000000000000, 6.123233995736766085E-15, 4.253961525412961464 ) ) ;
#68 = FACE_OUTER_BOUND ( 'NONE', #36, .T. ) ;
#69 = UNCERTAINTY_MEASURE_WITH_UNIT (LENGTH_MEASURE( 1.000000000000000082E-05 ), #97, 'distance_accuracy_value', 'NONE');
#70 = CIRCLE ( 'NONE', #60, 50.00000000000000000 ) ;
#71 = VERTEX_POINT ( 'NONE', #137 ) ;
#72 = ADVANCED_FACE ( 'NONE', ( #68 ), #17, .F. ) ;
#73 = CARTESIAN_POINT ( 'NONE',  ( 50.00000000000000000, 6.123233995736766085E-15, 6.000000000000000000 ) ) ;
#74 = CARTESIAN_POINT ( 'NONE',  ( 0.0000000000000000000, 0.0000000000000000000, 0.0000000000000000000 ) ) ;
#75 = EDGE_CURVE ( 'NONE', #10, #71, #117, .T. ) ;
#76 = CARTESIAN_POINT ( 'NONE',  ( 50.00000000000000000, 6.123233995736766085E-15, 4.253961525412961464 ) ) ;
#77 =( NAMED_UNIT ( * ) PLANE_ANGLE_UNIT ( ) SI_UNIT ( $, .RADIAN. ) );
#78 = DIRECTION ( 'NONE',  ( 1.000000000000000000, 0.0000000000000000000, 0.0000000000000000000 ) ) ;
#79 = FACE_OUTER_BOUND ( 'NONE', #25, .T. ) ;
#80 = ADVANCED_FACE ( 'NONE', ( #79 ), #121, .F. ) ;
#81 = CARTESIAN_POINT ( 'NONE',  ( -50.00000000000002132, 100.0000000000000000, 7.746038474587039424 ) ) ;
#82 = FILL_AREA_STYLE_COLOUR ( '', #3 ) ;
#83 = AXIS2_PLACEMENT_3D ( 'NONE', #133, #111, #126 ) ;
#84 = PRODUCT_DEFINITION ( 'Î´Öª', '', #131, #138 ) ;
#85 = FILL_AREA_STYLE ('',( #47 ) ) ;
#86 = SURFACE_STYLE_FILL_AREA ( #85 ) ;
#87 = CIRCLE ( 'NONE', #120, 50.00000000000000000 ) ;
#88 = STYLED_ITEM ( 'NONE', ( #95 ), #4 ) ;
#89 = EDGE_LOOP ( 'NONE', ( #91, #28, #37, #101 ) ) ;
#90 = PRESENTATION_LAYER_ASSIGNMENT (  '', '', ( #135 ) ) ;
#91 = ORIENTED_EDGE ( 'NONE', *, *, #33, .F. ) ;
#92 = DIRECTION ( 'NONE',  ( -1.000000000000000000, 0.0000000000000000000, 0.0000000000000000000 ) ) ;
#93 =( LENGTH_UNIT ( ) NAMED_UNIT ( * ) SI_UNIT ( .MILLI., .METRE. ) );
#94 = EDGE_CURVE ( 'NONE', #10, #128, #66, .T. ) ;
#95 = PRESENTATION_STYLE_ASSIGNMENT (( #98 ) ) ;
#96 =( NAMED_UNIT ( * ) PLANE_ANGLE_UNIT ( ) SI_UNIT ( $, .RADIAN. ) );
#97 =( LENGTH_UNIT ( ) NAMED_UNIT ( * ) SI_UNIT ( .MILLI., .METRE. ) );
#98 = SURFACE_STYLE_USAGE ( .BOTH. , #20 ) ;
#99 =( GEOMETRIC_REPRESENTATION_CONTEXT ( 3 ) GLOBAL_UNCERTAINTY_ASSIGNED_CONTEXT ( ( #69 ) ) GLOBAL_UNIT_ASSIGNED_CONTEXT ( ( #97, #123, #57 ) ) REPRESENTATION_CONTEXT ( 'NONE', 'WORKASPACE' ) );
#100 = PRESENTATION_LAYER_ASSIGNMENT (  '', '', ( #88 ) ) ;
#101 = ORIENTED_EDGE ( 'NONE', *, *, #48, .T. ) ;
#102 = AXIS2_PLACEMENT_3D ( 'NONE', #132, #105, #56 ) ;
#103 = ORIENTED_EDGE ( 'NONE', *, *, #38, .F. ) ;
#104 = EDGE_CURVE ( 'NONE', #61, #71, #70, .T. ) ;
#105 = DIRECTION ( 'NONE',  ( 0.0000000000000000000, 0.03489949670249403724, -0.9993908270190959842 ) ) ;
#106 = DIRECTION ( 'NONE',  ( -0.0000000000000000000, -0.0000000000000000000, -1.000000000000000000 ) ) ;
#107 =( NAMED_UNIT ( * ) SI_UNIT ( $, .STERADIAN. ) SOLID_ANGLE_UNIT ( ) );
#108 = DIRECTION ( 'NONE',  ( 0.0000000000000000000, 0.0000000000000000000, 1.000000000000000000 ) ) ;
#109 = DIRECTION ( 'NONE',  ( -0.0000000000000000000, -0.0000000000000000000, -1.000000000000000000 ) ) ;
#110 = APPLICATION_PROTOCOL_DEFINITION ( 'draft international standard', 'automotive_design', 1998, #34 ) ;
#111 = DIRECTION ( 'NONE',  ( -0.0000000000000000000, -0.0000000000000000000, -1.000000000000000000 ) ) ;
#112 =( GEOMETRIC_REPRESENTATION_CONTEXT ( 3 ) GLOBAL_UNCERTAINTY_ASSIGNED_CONTEXT ( ( #124 ) ) GLOBAL_UNIT_ASSIGNED_CONTEXT ( ( #19, #77, #8 ) ) REPRESENTATION_CONTEXT ( 'NONE', 'WORKASPACE' ) );
#113 = AXIS2_PLACEMENT_3D ( 'NONE', #63, #106, #92 ) ;
#114 = ADVANCED_FACE ( 'NONE', ( #49 ), #39, .T. ) ;
#115 = ORIENTED_EDGE ( 'NONE', *, *, #33, .T. ) ;
#116 = MECHANICAL_DESIGN_GEOMETRIC_PRESENTATION_REPRESENTATION (  '', ( #88 ), #99 ) ;
#117 = LINE ( 'NONE', #30, #62 ) ;
#118 = PRESENTATION_STYLE_ASSIGNMENT (( #65 ) ) ;
#119 = FILL_AREA_STYLE ('',( #82 ) ) ;
#120 = AXIS2_PLACEMENT_3D ( 'NONE', #74, #41, #6 ) ;
#121 = PLANE ( 'NONE',  #102 ) ;
#122 = VECTOR ( 'NONE', #27, 1000.000000000000000 ) ;
#123 =( NAMED_UNIT ( * ) PLANE_ANGLE_UNIT ( ) SI_UNIT ( $, .RADIAN. ) );
#124 = UNCERTAINTY_MEASURE_WITH_UNIT (LENGTH_MEASURE( 1.000000000000000082E-05 ), #19, 'distance_accuracy_value', 'NONE');
#125 = APPLICATION_PROTOCOL_DEFINITION ( 'draft international standard', 'automotive_design', 1998, #21 ) ;
#126 = DIRECTION ( 'NONE',  ( -1.000000000000000000, 0.0000000000000000000, 0.0000000000000000000 ) ) ;
#127 = CLOSED_SHELL ( 'NONE', ( #12, #114, #72, #80 ) ) ;
#128 = VERTEX_POINT ( 'NONE', #9 ) ;
#129 = ORIENTED_EDGE ( 'NONE', *, *, #94, .F. ) ;
#130 = SURFACE_STYLE_FILL_AREA ( #119 ) ;
#131 = PRODUCT_DEFINITION_FORMATION_WITH_SPECIFIED_SOURCE ( 'ÈÎºÎ', '', #43, .NOT_KNOWN. ) ;
#132 = CARTESIAN_POINT ( 'NONE',  ( -50.00000000000000000, 50.00000000000000000, 6.000000000000000000 ) ) ;
#133 = CARTESIAN_POINT ( 'NONE',  ( 0.0000000000000000000, 0.0000000000000000000, 6.000000000000000000 ) ) ;
#134 = ORIENTED_EDGE ( 'NONE', *, *, #104, .F. ) ;
#135 = STYLED_ITEM ( 'NONE', ( #118 ), #53 ) ;
#136 = CARTESIAN_POINT ( 'NONE',  ( -50.00000000000000000, -100.0000000000000000, 0.7618845762388835041 ) ) ;
#137 = CARTESIAN_POINT ( 'NONE',  ( -50.00000000000000000, 0.0000000000000000000, 0.0000000000000000000 ) ) ;
#138 = PRODUCT_DEFINITION_CONTEXT ( 'detailed design', #34, 'design' ) ;
#139 = CARTESIAN_POINT ( 'NONE',  ( 50.00000000000002132, -100.0000000000000000, 0.7618845762388835041 ) ) ;
#140 = DIRECTION ( 'NONE',  ( 0.0000000000000000000, 0.0000000000000000000, 1.000000000000000000 ) ) ;
ENDSEC;
END-ISO-10303-21;
